Где я? ZANOZA.LVдаугавпилсская жизньevilstrings → Выпуск 3

Сначала нужно залогиниться или зарегистрироваться.

evilstrings: Выпуск 3

22.11.2000 15:00, 216 месяцев назад

Всем привет, это опять я.




Сразу вернемся к теме прошлого выпуска. Конечно, на 4 ладу нужно зажимать не H, а G. Эту мою оплошность заметили целых 2 человека из 2500 - это Alexander I. Sapozhnikov и Alexander A. Молодцы, не зевайте и дальше.



Kirill Linnik рассуждает о струнах:




"...Yamaha - ну что может сделать фирма, которая занимается всем, что под руку
попадется?




GHS - вообще делаются из металлолома, поэтому и звук у них какой-то странный.




D'Addario - неплохие струны американского, если не ошибаюсь, качества, но звук у них уж больно отдает железом.




Martin Studio Performance (или Martin SP, как их иногда называют) - струны классом повыше среднего: отличное звучание, особенно если вы берете серию фосфора с бронзой (за это, конечно, приходится выложить не то, чтобы порядочно, но больше, чем обычно, НО... результат превосходит все ожидания!)




Размер струн определяется по диаметру первой струны, как правило. Основные размеры:




  • 8 - слишком тонкие, для начинающих.

  • 9 - хороши для электрогитары, но не более.

  • 12 - довольно серьезное звучание, но если хотите добиться чего-то достойного,
    то:

  • 13 - советуют профессионалы (например, Eric Clapton и т.д.)"





Много возражений вызвало мое обвинение в адрес негров. Господа, так ли это важно? Просто давайте придерживаться одного стандарта: H - си, Hb - си-бемоль.




Мой тезка Макс пишет, что "везде пишут о том что настройка начинается с первой струны, прижатой на пятом ладу что и является той самой нотой А. Хотя твой способ я тоже испробую, довольно интересно". Интересно, не спорю. Также он утверждает, что расстояние от струн до порожков измеряется на 12 ладу. Какая к черту разница?





Что у нас дальше... Вышеупомянутый Alexander I. Sapozhnikov делится опытом(речь идет о тюнере):





"А если нет и его, настоящему программисту ничего не стоит слепить за 3 минуты нечто, пищащее через спикер искомые 440 Гц. Я пару раз так и поступал :-) Либо 330 -- ми первой октавы (а точнее, её частота равна440/2^(5/12)=329,627556912871 Гц, но в паскале и си (имеются в виду TP и TC/BC) можно задавать в функции sound() только целочисленные значения частоты".





Хм... В продолжение темы: где-то я видел такой совет для людей, начисто лишенных слуха. Вместо того, чтобы ловить момент, когда струны начинают звучать в унисон, рекомендуется просто подкручивать их, пока не возникнет устойчивый, заметный невооруженным глазом резонанс.




MadCore рвется играть Металлику и Offspring, причем прислал мне три табуляции и просит чего-нибудь взамен. В принципе, я пока не собирался заставлять вас играть такие, в общем-то, непростые вещи, так что, MadCore, если тебе нужно что-то конкретное, говори, вышлю мылом.




Dmitry со знакомым .lv попросил Other Side от RHCP. В следующем выпуске.





Leva спросил, как выбрать гитару, не выбросив деньги на ветер. В принципе, в прошлом выпуске я как раз об этом и писал. Но, повторюсь, лучший выход - возьмите в помощники специалиста.




Отдельное спасибо Сергею Егорову, по достоинству оценившего моего Zombie. За душу, говорит, взяло. Вот.




Ладно, переходим к делу. Хе.. Прочитал сегодня в рассылке "Смешное FIDO": "Должен остаться только один!" - издевался Колобок над Горцем.




Итак, сегодня наши гитары уже будут издавать звуки. Давайте рассмотрим такую вещь как табуляция (tablature, tabs). Это общепринятая в гитарном мире система записи нот. Вот как она выглядит:




E||--3----0----0----3----0----0----3----1----0--------------5--------|
B||---------------------------------------------------3----1---------|
G||------------------------------------------------------------------|
D||------------------------------------------------------------------|
A||------------------------------------------------------------------|
E||------------------------------------------------------------------|


--8----5----3----0----0----3----1----0------------------||
----------------------------------------------3----1----||
--------------------------------------------------------||
--------------------------------------------------------||
--------------------------------------------------------||
--------------------------------------------------------||



Вы видите шесть линеек, как раз по числу струн. В самом начале стоят обозначения струн, но очень часто они отсутствуют, главное - помнить, что первая линейка отвечает за первую (самую тонкую) струну. На линейках встречаются цифры, показывают, что струну нужно дернуть, зажав на ладу, номер которого и показывает цифра. Ноль - открытая (не зажатая) струна. Вот и попробуйте сыграть то, что я вам изобразил. Если все делаете правильно, то услышите мелодию популярной детской песенки "В лесу родилась елочка". Хотя дети сейчас как один слушают джангл...



Еще?



-------------------------------------
-------------------------------------
-------------------------------------
-------------------------------------
-----------0---0-----------2-----2---
-0-0-1-2-----2---2-2-1-0--0-----0----



Получается Come As You Are? А теперь опять Nirvana. Sliver:




----------------------------------|
----------------------------------|
----------------------------------|
----------------------------------|
---3--3-3--------3--1-0---0-1-----|
----------1--1-1---------3--------|



А как насчет




--------------------------------------------
--------------------------------------------
--------------------------------------------
-----------------0---4---2---0--------------
-------------2------------------------------
-0---0---4----------------------------------



Это была Pretty Woman.




Ну и наконец сыграем что-нибудь посерьезнее. Как насчет Сплина, а именно "Бог устал нас любить"? Играйте вот эту мелодию:




||----------------------------------------------------------------|
||-----------------1--------------------------------1-------------|
||------------2-----------2--------------------2---------2--------|
||-------2---------------------2---------0-------------------0----|
||--0-------------------------------------------------------------|
||----------------------------------2-----------------------------|


----------------------------------------------------------------||
-----------------0----------------0---------------3----1----0---||
------------0-----------0--------------0------------------------||
-------0---------------------0---------------0------------------||
----------------------------------------------------------------||
--3---------------------------------------- --------------------||



и пойте вот эти слова:




Мы чересчур увеличили дозу
Вспомнили все, что хотели забыть
Или на рельсы легли слишком поздно

Бог устал нас любить
Бог устал нас любить
Бог просто устал нас любить
Бог просто устал

Вот она, гильза от пули навылет
Карта, которую нечем покрыть
Мы остаемся одни в этом мире

Бог устал нас любить
Бог устал нас любить
Бог просто устал нас любить
Бог просто устал

Я рассказал бы тебе все что знаю
Только об этом нельзя говорить
Выпавший снег никогда не растает
Бог устал нас любить
Бог устал нас любить
Бог просто устал нас любить
Бог просто устал



Если хотите послушать ее в midi, то вот ссылочка: http://www.geocities.com/SiliconValley/Mouse/8946/god.zip (321 байт(!)).




Итак, я думаю, с табуляциями все ясно. Давайте сразу перейдем к аккордам. Как говорится в музыкальной теории (пусть меня поправит Alexander I. Sapozhnikov или даже Kirill Linnik), аккорд - это три или более ноты. Называются аккорды по главной ноте (тонике) и изображаются буквами, т.е. C, D, E, F, G, A и H. Аккорды бывают нескольких видов - мажорные, минорные, септаккорды и т.д. Грубо говоря, мажорные звучат весело, минорные - более-менее печально, а септаккорды... хмм, сами поймете, как они звучат. Если вы видите одну букву (C, D, F# и т.д.) - это значит, что в виду имеется мажорный аккорд. Если после буквы стоит маленькая буква m, то аккорд минорный (например, Hm или G#m). Ну а в обозначении септаккордов после буквы стоит цифра 7 (А7). Разобрались.




Теперь главное. Как аккорды строить? Вообще один и тот же аккорд можно взять множеством способов, причем некоторые такие залихватские, что без помощи третьих лиц не обойтись - пальцев не хватает. Конечно, мы пока будем выбирать самые простые. Для начала я рекомендую вам скачать программку Guitar Pro - с ее помощью очень легко увидеть, как строится тот или иной аккорд. Лежит она где-то на www.guitar-pro.com, кстати, не такая и большая. Ну а если качать лень или нет возможности, в конце рассылки я положил раскладки нескольких простейших аккордов. Как обычно, вверху самая тонкая струна. Ставьте пальцы как показано, подергайте по очереди струны, чтобы убедиться, что все зажаты как надо, и уже через час пальцы начнут жутко болеть, а через день покроются мозолями. К следующему выпуску постарайтесь уверенно строить C, Am, Dm и G.




Вот в принципе и все. Играйте, играйте и еще раз играйте. Где меня найти - известно ( msadov@apollo.lv ). Кстати, если не жалко, киньте кто-нибудь слова и аккорды песни Грин Грэя (той, где Мазафака).

Комменты:

blog comments powered by Disqus